ISO-10303-21;
HEADER;
/* Generated by software containing ST-Developer
 * from STEP Tools, Inc. (www.steptools.com) 
 */

FILE_DESCRIPTION(
/* description */ (''),
/* implementation_level */ '2;1');

FILE_NAME(
/* name */ 'C:\\Users\\prokope\\Desktop\\PIM\\neu\\302559 CU250.stp',
/* time_stamp */ '2023-02-08T12:57:39+01:00',
/* author */ ('prokope'),
/* organization */ (''),
/* preprocessor_version */ 'ST-DEVELOPER v18.1',
/* originating_system */ 'Autodesk Inventor 2020',
/* authorisation */ '');

FILE_SCHEMA (('AUTOMOTIVE_DESIGN { 1 0 10303 214 3 1 1 }'));
ENDSEC;

DATA;
#10=MECHANICAL_DESIGN_GEOMETRIC_PRESENTATION_REPRESENTATION('',(#116,#117,
#118,#119,#120,#121,#122,#123,#124),#262);
#11=ITEM_DEFINED_TRANSFORMATION($,$,#162,#179);
#12=(
REPRESENTATION_RELATIONSHIP($,$,#273,#272)
REPRESENTATION_RELATIONSHIP_WITH_TRANSFORMATION(#11)
SHAPE_REPRESENTATION_RELATIONSHIP()
);
#13=CONTEXT_DEPENDENT_SHAPE_REPRESENTATION(#12,#271);
#14=NEXT_ASSEMBLY_USAGE_OCCURRENCE('iCU250:1','iCU250:1','iCU250:1',#275,
#276,'iCU250:1');
#15=SHAPE_REPRESENTATION_RELATIONSHIP('SRR','None',#273,#16);
#16=ADVANCED_BREP_SHAPE_REPRESENTATION('',(#17),#261);
#17=MANIFOLD_SOLID_BREP('Volumenk\X\F6rper1',#133);
#18=CYLINDRICAL_SURFACE('',#168,127.1);
#19=CYLINDRICAL_SURFACE('',#172,136.435);
#20=FACE_BOUND('',#34,.T.);
#21=FACE_BOUND('',#40,.T.);
#22=PLANE('',#166);
#23=PLANE('',#176);
#24=FACE_OUTER_BOUND('',#32,.T.);
#25=FACE_OUTER_BOUND('',#33,.T.);
#26=FACE_OUTER_BOUND('',#35,.T.);
#27=FACE_OUTER_BOUND('',#36,.T.);
#28=FACE_OUTER_BOUND('',#37,.T.);
#29=FACE_OUTER_BOUND('',#38,.T.);
#30=FACE_OUTER_BOUND('',#39,.T.);
#31=FACE_OUTER_BOUND('',#41,.T.);
#32=EDGE_LOOP('',(#84,#85,#86,#87));
#33=EDGE_LOOP('',(#88));
#34=EDGE_LOOP('',(#89));
#35=EDGE_LOOP('',(#90,#91,#92,#93));
#36=EDGE_LOOP('',(#94,#95,#96,#97));
#37=EDGE_LOOP('',(#98,#99,#100,#101));
#38=EDGE_LOOP('',(#102,#103,#104,#105));
#39=EDGE_LOOP('',(#106));
#40=EDGE_LOOP('',(#107));
#41=EDGE_LOOP('',(#108,#109,#110,#111));
#42=LINE('',#230,#48);
#43=LINE('',#237,#49);
#44=LINE('',#242,#50);
#45=LINE('',#246,#51);
#46=LINE('',#250,#52);
#47=LINE('',#255,#53);
#48=VECTOR('',#188,127.35);
#49=VECTOR('',#197,127.1);
#50=VECTOR('',#204,136.185);
#51=VECTOR('',#209,136.435);
#52=VECTOR('',#214,127.35);
#53=VECTOR('',#221,136.185);
#54=CIRCLE('',#164,127.6);
#55=CIRCLE('',#165,127.1);
#56=CIRCLE('',#167,135.935);
#57=CIRCLE('',#169,127.1);
#58=CIRCLE('',#171,136.435);
#59=CIRCLE('',#173,136.435);
#60=CIRCLE('',#175,127.6);
#61=CIRCLE('',#177,135.935);
#62=VERTEX_POINT('',#227);
#63=VERTEX_POINT('',#229);
#64=VERTEX_POINT('',#233);
#65=VERTEX_POINT('',#236);
#66=VERTEX_POINT('',#240);
#67=VERTEX_POINT('',#244);
#68=VERTEX_POINT('',#248);
#69=VERTEX_POINT('',#252);
#70=EDGE_CURVE('',#62,#62,#54,.T.);
#71=EDGE_CURVE('',#62,#63,#42,.T.);
#72=EDGE_CURVE('',#63,#63,#55,.T.);
#73=EDGE_CURVE('',#64,#64,#56,.T.);
#74=EDGE_CURVE('',#63,#65,#43,.T.);
#75=EDGE_CURVE('',#65,#65,#57,.T.);
#76=EDGE_CURVE('',#66,#66,#58,.T.);
#77=EDGE_CURVE('',#66,#64,#44,.T.);
#78=EDGE_CURVE('',#67,#67,#59,.T.);
#79=EDGE_CURVE('',#67,#66,#45,.T.);
#80=EDGE_CURVE('',#68,#68,#60,.T.);
#81=EDGE_CURVE('',#68,#65,#46,.T.);
#82=EDGE_CURVE('',#69,#69,#61,.T.);
#83=EDGE_CURVE('',#67,#69,#47,.T.);
#84=ORIENTED_EDGE('',*,*,#70,.T.);
#85=ORIENTED_EDGE('',*,*,#71,.T.);
#86=ORIENTED_EDGE('',*,*,#72,.T.);
#87=ORIENTED_EDGE('',*,*,#71,.F.);
#88=ORIENTED_EDGE('',*,*,#73,.F.);
#89=ORIENTED_EDGE('',*,*,#70,.F.);
#90=ORIENTED_EDGE('',*,*,#72,.F.);
#91=ORIENTED_EDGE('',*,*,#74,.T.);
#92=ORIENTED_EDGE('',*,*,#75,.F.);
#93=ORIENTED_EDGE('',*,*,#74,.F.);
#94=ORIENTED_EDGE('',*,*,#76,.T.);
#95=ORIENTED_EDGE('',*,*,#77,.T.);
#96=ORIENTED_EDGE('',*,*,#73,.T.);
#97=ORIENTED_EDGE('',*,*,#77,.F.);
#98=ORIENTED_EDGE('',*,*,#78,.F.);
#99=ORIENTED_EDGE('',*,*,#79,.T.);
#100=ORIENTED_EDGE('',*,*,#76,.F.);
#101=ORIENTED_EDGE('',*,*,#79,.F.);
#102=ORIENTED_EDGE('',*,*,#80,.T.);
#103=ORIENTED_EDGE('',*,*,#81,.T.);
#104=ORIENTED_EDGE('',*,*,#75,.T.);
#105=ORIENTED_EDGE('',*,*,#81,.F.);
#106=ORIENTED_EDGE('',*,*,#82,.F.);
#107=ORIENTED_EDGE('',*,*,#80,.F.);
#108=ORIENTED_EDGE('',*,*,#78,.T.);
#109=ORIENTED_EDGE('',*,*,#83,.T.);
#110=ORIENTED_EDGE('',*,*,#82,.T.);
#111=ORIENTED_EDGE('',*,*,#83,.F.);
#112=CONICAL_SURFACE('',#163,127.35,0.785398163397455);
#113=CONICAL_SURFACE('',#170,136.185,0.785398163397455);
#114=CONICAL_SURFACE('',#174,127.35,0.785398163397455);
#115=CONICAL_SURFACE('',#178,136.185,0.785398163397455);
#116=STYLED_ITEM('',(#152),#125);
#117=STYLED_ITEM('',(#152),#126);
#118=STYLED_ITEM('',(#152),#127);
#119=STYLED_ITEM('',(#152),#128);
#120=STYLED_ITEM('',(#152),#129);
#121=STYLED_ITEM('',(#152),#130);
#122=STYLED_ITEM('',(#152),#131);
#123=STYLED_ITEM('',(#152),#132);
#124=STYLED_ITEM('',(#152),#17);
#125=ADVANCED_FACE('',(#24),#112,.F.);
#126=ADVANCED_FACE('',(#25,#20),#22,.T.);
#127=ADVANCED_FACE('',(#26),#18,.F.);
#128=ADVANCED_FACE('',(#27),#113,.T.);
#129=ADVANCED_FACE('',(#28),#19,.T.);
#130=ADVANCED_FACE('',(#29),#114,.F.);
#131=ADVANCED_FACE('',(#30,#21),#23,.F.);
#132=ADVANCED_FACE('',(#31),#115,.T.);
#133=CLOSED_SHELL('',(#125,#126,#127,#128,#129,#130,#131,#132));
#134=DERIVED_UNIT_ELEMENT(#136,1.);
#135=DERIVED_UNIT_ELEMENT(#264,3.);
#136=(
MASS_UNIT()
NAMED_UNIT(*)
SI_UNIT($,.GRAM.)
);
#137=DERIVED_UNIT((#134,#135));
#138=MEASURE_REPRESENTATION_ITEM('density measure',
POSITIVE_RATIO_MEASURE(8.94),#137);
#139=PROPERTY_DEFINITION_REPRESENTATION(#144,#141);
#140=PROPERTY_DEFINITION_REPRESENTATION(#145,#142);
#141=REPRESENTATION('material name',(#143),#261);
#142=REPRESENTATION('density',(#138),#261);
#143=DESCRIPTIVE_REPRESENTATION_ITEM('Kupfer','Kupfer');
#144=PROPERTY_DEFINITION('material property','material name',#276);
#145=PROPERTY_DEFINITION('material property','density of part',#276);
#146=DATE_TIME_ROLE('creation_date');
#147=APPLIED_DATE_AND_TIME_ASSIGNMENT(#148,#146,(#276));
#148=DATE_AND_TIME(#149,#150);
#149=CALENDAR_DATE(2006,14,8);
#150=LOCAL_TIME(14,32,8.,#151);
#151=COORDINATED_UNIVERSAL_TIME_OFFSET(0,0,.BEHIND.);
#152=PRESENTATION_STYLE_ASSIGNMENT((#153));
#153=SURFACE_STYLE_USAGE(.BOTH.,#156);
#154=SURFACE_STYLE_RENDERING_WITH_PROPERTIES($,#160,(#155));
#155=SURFACE_STYLE_TRANSPARENT(0.);
#156=SURFACE_SIDE_STYLE('',(#157,#154));
#157=SURFACE_STYLE_FILL_AREA(#158);
#158=FILL_AREA_STYLE('',(#159));
#159=FILL_AREA_STYLE_COLOUR('',#160);
#160=COLOUR_RGB('',0.737254901960784,0.313725490196078,0.184313725490196);
#161=AXIS2_PLACEMENT_3D('placement',#224,#180,#181);
#162=AXIS2_PLACEMENT_3D('placement',#225,#182,#183);
#163=AXIS2_PLACEMENT_3D('',#226,#184,#185);
#164=AXIS2_PLACEMENT_3D('',#228,#186,#187);
#165=AXIS2_PLACEMENT_3D('',#231,#189,#190);
#166=AXIS2_PLACEMENT_3D('',#232,#191,#192);
#167=AXIS2_PLACEMENT_3D('',#234,#193,#194);
#168=AXIS2_PLACEMENT_3D('',#235,#195,#196);
#169=AXIS2_PLACEMENT_3D('',#238,#198,#199);
#170=AXIS2_PLACEMENT_3D('',#239,#200,#201);
#171=AXIS2_PLACEMENT_3D('',#241,#202,#203);
#172=AXIS2_PLACEMENT_3D('',#243,#205,#206);
#173=AXIS2_PLACEMENT_3D('',#245,#207,#208);
#174=AXIS2_PLACEMENT_3D('',#247,#210,#211);
#175=AXIS2_PLACEMENT_3D('',#249,#212,#213);
#176=AXIS2_PLACEMENT_3D('',#251,#215,#216);
#177=AXIS2_PLACEMENT_3D('',#253,#217,#218);
#178=AXIS2_PLACEMENT_3D('',#254,#219,#220);
#179=AXIS2_PLACEMENT_3D('',#256,#222,#223);
#180=DIRECTION('axis',(0.,0.,1.));
#181=DIRECTION('refdir',(1.,0.,0.));
#182=DIRECTION('axis',(0.,0.,1.));
#183=DIRECTION('refdir',(1.,0.,0.));
#184=DIRECTION('center_axis',(0.,0.,-1.));
#185=DIRECTION('ref_axis',(-1.,0.,0.));
#186=DIRECTION('center_axis',(0.,0.,-1.));
#187=DIRECTION('ref_axis',(-1.,0.,0.));
#188=DIRECTION('',(-0.707106781186553,8.659560562355E-17,0.707106781186543));
#189=DIRECTION('center_axis',(0.,0.,1.));
#190=DIRECTION('ref_axis',(-1.,0.,0.));
#191=DIRECTION('center_axis',(0.,0.,-1.));
#192=DIRECTION('ref_axis',(-1.,0.,0.));
#193=DIRECTION('center_axis',(0.,0.,1.));
#194=DIRECTION('ref_axis',(-1.,0.,0.));
#195=DIRECTION('center_axis',(0.,0.,1.));
#196=DIRECTION('ref_axis',(-1.,0.,0.));
#197=DIRECTION('',(0.,0.,1.));
#198=DIRECTION('center_axis',(0.,0.,-1.));
#199=DIRECTION('ref_axis',(-1.,0.,0.));
#200=DIRECTION('center_axis',(0.,0.,1.));
#201=DIRECTION('ref_axis',(-1.,0.,0.));
#202=DIRECTION('center_axis',(0.,0.,-1.));
#203=DIRECTION('ref_axis',(-1.,0.,0.));
#204=DIRECTION('',(-0.707106781186553,-8.65956056235499E-17,-0.707106781186542));
#205=DIRECTION('center_axis',(0.,0.,1.));
#206=DIRECTION('ref_axis',(-1.,0.,0.));
#207=DIRECTION('center_axis',(0.,0.,1.));
#208=DIRECTION('ref_axis',(-1.,0.,0.));
#209=DIRECTION('',(0.,0.,-1.));
#210=DIRECTION('center_axis',(0.,0.,1.));
#211=DIRECTION('ref_axis',(-1.,0.,0.));
#212=DIRECTION('center_axis',(0.,0.,1.));
#213=DIRECTION('ref_axis',(-1.,0.,0.));
#214=DIRECTION('',(-0.707106781186553,-8.659560562355E-17,-0.707106781186543));
#215=DIRECTION('center_axis',(0.,0.,-1.));
#216=DIRECTION('ref_axis',(-1.,0.,0.));
#217=DIRECTION('center_axis',(0.,0.,-1.));
#218=DIRECTION('ref_axis',(-1.,0.,0.));
#219=DIRECTION('center_axis',(0.,0.,-1.));
#220=DIRECTION('ref_axis',(-1.,0.,0.));
#221=DIRECTION('',(-0.707106781186553,8.65956056235499E-17,0.707106781186542));
#222=DIRECTION('',(0.,0.,1.));
#223=DIRECTION('',(1.,0.,0.));
#224=CARTESIAN_POINT('',(0.,0.,0.));
#225=CARTESIAN_POINT('',(0.,0.,0.));
#226=CARTESIAN_POINT('Origin',(0.,0.,-0.75));
#227=CARTESIAN_POINT('',(127.6,-1.56264931571202E-14,-1.));
#228=CARTESIAN_POINT('Origin',(0.,0.,-1.));
#229=CARTESIAN_POINT('',(127.1,1.55652608171629E-14,-0.5));
#230=CARTESIAN_POINT('',(127.35,-1.55958769871415E-14,-0.75));
#231=CARTESIAN_POINT('Origin',(0.,0.,-0.5));
#232=CARTESIAN_POINT('Origin',(0.,0.,-1.));
#233=CARTESIAN_POINT('',(135.935,1.66472362642095E-14,-1.));
#234=CARTESIAN_POINT('Origin',(0.,0.,-1.));
#235=CARTESIAN_POINT('Origin',(0.,0.,0.));
#236=CARTESIAN_POINT('',(127.1,-1.55652608171629E-14,0.5));
#237=CARTESIAN_POINT('',(127.1,1.55652608171629E-14,0.));
#238=CARTESIAN_POINT('Origin',(0.,0.,0.5));
#239=CARTESIAN_POINT('Origin',(0.,0.,-0.75));
#240=CARTESIAN_POINT('',(136.435,-1.67084686041669E-14,-0.5));
#241=CARTESIAN_POINT('Origin',(0.,0.,-0.5));
#242=CARTESIAN_POINT('',(136.185,1.66778524341882E-14,-0.75));
#243=CARTESIAN_POINT('Origin',(0.,0.,0.));
#244=CARTESIAN_POINT('',(136.435,1.67084686041669E-14,0.5));
#245=CARTESIAN_POINT('Origin',(0.,0.,0.5));
#246=CARTESIAN_POINT('',(136.435,1.67084686041669E-14,0.));
#247=CARTESIAN_POINT('Origin',(0.,0.,0.75));
#248=CARTESIAN_POINT('',(127.6,1.56264931571202E-14,1.));
#249=CARTESIAN_POINT('Origin',(0.,0.,1.));
#250=CARTESIAN_POINT('',(127.35,1.55958769871415E-14,0.75));
#251=CARTESIAN_POINT('Origin',(0.,0.,1.));
#252=CARTESIAN_POINT('',(135.935,-1.66472362642095E-14,1.));
#253=CARTESIAN_POINT('Origin',(0.,0.,1.));
#254=CARTESIAN_POINT('Origin',(0.,0.,0.75));
#255=CARTESIAN_POINT('',(136.185,-1.66778524341882E-14,0.75));
#256=CARTESIAN_POINT('',(0.,0.,0.));
#257=UNCERTAINTY_MEASURE_WITH_UNIT(LENGTH_MEASURE(0.01),#263,
'DISTANCE_ACCURACY_VALUE',
'Maximum model space distance between geometric entities at asserted c
onnectivities');
#258=UNCERTAINTY_MEASURE_WITH_UNIT(LENGTH_MEASURE(0.01),#263,
'DISTANCE_ACCURACY_VALUE',
'Maximum model space distance between geometric entities at asserted c
onnectivities');
#259=UNCERTAINTY_MEASURE_WITH_UNIT(LENGTH_MEASURE(0.01),#263,
'DISTANCE_ACCURACY_VALUE',
'Maximum model space distance between geometric entities at asserted c
onnectivities');
#260=(
GEOMETRIC_REPRESENTATION_CONTEXT(3)
GLOBAL_UNCERTAINTY_ASSIGNED_CONTEXT((#257))
GLOBAL_UNIT_ASSIGNED_CONTEXT((#263,#265,#266))
REPRESENTATION_CONTEXT('','3D')
);
#261=(
GEOMETRIC_REPRESENTATION_CONTEXT(3)
GLOBAL_UNCERTAINTY_ASSIGNED_CONTEXT((#258))
GLOBAL_UNIT_ASSIGNED_CONTEXT((#263,#265,#266))
REPRESENTATION_CONTEXT('','3D')
);
#262=(
GEOMETRIC_REPRESENTATION_CONTEXT(3)
GLOBAL_UNCERTAINTY_ASSIGNED_CONTEXT((#259))
GLOBAL_UNIT_ASSIGNED_CONTEXT((#263,#265,#266))
REPRESENTATION_CONTEXT('','3D')
);
#263=(
LENGTH_UNIT()
NAMED_UNIT(*)
SI_UNIT(.MILLI.,.METRE.)
);
#264=(
LENGTH_UNIT()
NAMED_UNIT(*)
SI_UNIT(.CENTI.,.METRE.)
);
#265=(
NAMED_UNIT(*)
PLANE_ANGLE_UNIT()
SI_UNIT($,.RADIAN.)
);
#266=(
NAMED_UNIT(*)
SI_UNIT($,.STERADIAN.)
SOLID_ANGLE_UNIT()
);
#267=SHAPE_DEFINITION_REPRESENTATION(#269,#272);
#268=SHAPE_DEFINITION_REPRESENTATION(#270,#273);
#269=PRODUCT_DEFINITION_SHAPE('',$,#275);
#270=PRODUCT_DEFINITION_SHAPE('',$,#276);
#271=PRODUCT_DEFINITION_SHAPE($,$,#14);
#272=SHAPE_REPRESENTATION('',(#161,#179),#260);
#273=SHAPE_REPRESENTATION('',(#162),#261);
#274=PRODUCT_DEFINITION_CONTEXT('part definition',#282,'design');
#275=PRODUCT_DEFINITION('Baugruppe5','Baugruppe5',#277,#274);
#276=PRODUCT_DEFINITION('20000001486','iCU250',#278,#274);
#277=PRODUCT_DEFINITION_FORMATION('',$,#284);
#278=PRODUCT_DEFINITION_FORMATION('00',$,#285);
#279=PRODUCT_RELATED_PRODUCT_CATEGORY('Baugruppe5','Baugruppe5',(#284));
#280=PRODUCT_RELATED_PRODUCT_CATEGORY('iCU250','iCU250',(#285));
#281=APPLICATION_PROTOCOL_DEFINITION('international standard',
'automotive_design',2009,#282);
#282=APPLICATION_CONTEXT(
'Core Data for Automotive Mechanical Design Process');
#283=PRODUCT_CONTEXT('part definition',#282,'mechanical');
#284=PRODUCT('Baugruppe5','Baugruppe5',$,(#283));
#285=PRODUCT('20000001486','iCU250','300402',(#283));
ENDSEC;
END-ISO-10303-21;
